Kids educational song about firefly life cycle - Your Published Songwriter Team Output

Songwriter


**Themes and Keywords:** Keywords: Firefly, life cycle, metamorphosis, egg, larva, pupa, adult, light, glow, insect, nighttime, summer, biology, science, education.

Possible themes:
1. Wonder and magic of fireflies and their unique life cycle
2. Importance of understanding and preserving nature and its creatures
3. Learning about metamorphosis and growth through the example of fireflies

Key: C Major
Beat: Upbeat and playful, resembling a summery night ambiance.

**Locations and Color:** Elaborated keywords:

1. Firefly: small, winged beetle-like insect known for its bioluminescent light production
2. Life cycle: the series of changes an organism goes through as it grows and develops
3. Metamorphosis: the process of transformation from one stage to another, typically from larva to adult
4. Egg: the first stage in the life cycle of a firefly
5. Larva: the second stage in the life cycle of a firefly where it starts feeding
6. Pupa: the third stage in the life cycle of a firefly where the body transforms into the adult form
7. Adult: the final stage in the life cycle of a firefly where it reaches sexual maturity and starts to reproduce
8. Light: the bioluminescent ability of a firefly to produce light from its body
9. Glow: the visible light produced by a firefly
10. Insect: a class of small arthropod animals with three body segments, six legs, and wings
11. Nighttime: the period of time between dusk and dawn when fireflies are most active
12. Summer: the season when fireflies are most prevalent and active
13. Biology: the scientific study of living organisms
14. Science: the study of the natural world through experimentation and observation
15. Education: the purposeful and systematic imparting of knowledge and skills

Reasoning:

The added descriptors and elaborated keywords provide a better understanding of the specific topic and details related to the firefly life cycle. This would help in creating a more comprehensive and educational song. The themes are centered around educating and creating an appreciation for these delicate creatures while conveying important scientific concepts like metamorphosis and growth. The key of C Major with an upbeat and playful beat would complement the theme of the song and create a melodic atmosphere that would engage and entertain children while educating them.

**Lyrics:**
-|-------0---|-------0---|-------0---|-------0---|
-|-----1-----|-----1-----|-----1-----|-----1-----|
-|---0-------|---0-------|---0-------|---0-------|
-|-2---------|-3---------|-5---------|-3---------|
-|-----------|-----------|---------3-|-----------|
-|-----------|-----------|-----------|-----------|

Verse 1:
Glowing bright like stars at night,
Fireflies light up our sight.
They've got a life cycle to live,
Through stages they transform and give.

Chorus:
No chorus.

Verse 2:
First comes the egg, small and round,
Larva hatches, from the ground.
Feeding on snails and slugs and such,
Growing bigger, by and much.

Chorus:
No chorus.

Verse 3:
Then the pupa, hard they'll grow,
Wings and body quick to show.
Adult fireflies, at last they gleam,
Flashing lights, like a dream.

Chorus:
No chorus.

Verse 4:
Biology and science play a role,
Learning about these creatures whole.
Insect friends both big and small,
They teach us lessons, one and all.

Chorus:
No chorus.


The melody in C Major and the upbeat tempo captures the playful and magical essence of fireflies while the lyrics detail the stages of their life cycle. No chorus, as an educational song tends to be more informative and relying on a chorus, often used for musical breaks and climaxes, would not fit the goal here. This format, with simple rhyming couplets, allows for more information to be provided and a catchy, but educational song to be created.

**Refined Lyrics:**
-|-------0---|-------0---|-------0---|-------0---|
-|-----1-----|-----1-----|-----1-----|-----1-----|
-|---0-------|---0-------|---0-------|---0-------|
-|-2---------|-3---------|-5---------|-3---------|
-|-----------|-----------|---------3-|-----------|
-|-----------|-----------|-----------|-----------|

Verse 1:
Glowing bright like stars at night,
Fireflies light up the sky.
Watch them as they come to life,
Their metamorphosis our delight.

-|-------0---|-------0---|-------0---|-------0---|
-|-----1-----|-----1-----|-----1-----|-----1-----|
-|---0-------|---0-------|---0-------|---0-------|
-|-2---------|-3---------|-5---------|-3---------|
-|-----------|-----------|---------3-|-----------|
-|-----------|-----------|-----------|-----------|

Verse 2:
From an egg, a larva is born,
Feeding on snails after the dawn.
Growing and molting, so many times,
Bigger and stronger each and every time.

-|-------0---|-------0---|-------0---|-------0---|
-|-----1-----|-----1-----|-----1-----|-----1-----|
-|---0-------|---0-------|---0-------|---0-------|
-|-2---------|-3---------|-5---------|-3---------|
-|-----------|-----------|---------3-|-----------|
-|-----------|-----------|-----------|-----------|

Verse 3:
Then the pupa stage begins,
The body changes, the metamorphosis wins.
It's hard and dark, but that's alright,
Soon an adult firefly will come to light.

-|-------0---|-------0---|-------0---|-------0---|
-|-----1-----|-----1-----|-----1-----|-----1-----|
-|---0-------|---0-------|---0-------|---0-------|
-|-2---------|-3---------|-5---------|-3---------|
-|-----------|-----------|---------3-|-----------|
-|-----------|-----------|-----------|-----------|

Verse 4:
Finally, an adult firefly they do grow,
Wings so big, they start to glow.
Looking for their mate, they will dance,
Flashing lights with their belly's trance.

-|-------0---|-------0---|-------0---|-------0---|
-|-----1-----|-----1-----|-----1-----|-----1-----|
-|---0-------|---0-------|---0-------|---0-------|
-|-2---------|-3---------|-5---------|-3---------|
-|-----------|-----------|---------3-|-----------|
-|-----------|-----------|-----------|-----------|

Verse 5:
Let’s study and learn, let’s explore,
The world around us, like never before.
Science and biology help us understand,
The importance of nature and life on this land.

-|-------0---|-------0---|-------0---|-------0---|
-|-----1-----|-----1-----|-----1-----|-----1-----|
-|---0-------|---0-------|---0-------|---0-------|
-|-2---------|-3---------|-5---------|-3---------|
-|-----------|-----------|---------3-|-----------|
-|-----------|-----------|-----------|-----------|

Verse 6:
Fireflies, insects of the night,
Summer brings them to our

**Album Art and Titles:** Visual Color Scheme: Use a mix of dark blues, purples, and greens to create a nighttime forest-like setting where fireflies can be found.

Album Art: Have an image of a group of fireflies, their fleeting light captured in the midst of the forest.

Other Song Titles:

1. "Metamorphosis Magic": This song could explore the unique transformation of butterflies, frogs, and other animals that go through similar processes, highlighting how the process is similar but slightly different between species.

2. "Nature's Orchestra": This song would examine the natural sounds of the environment, with examples of the sounds of the woods or the ocean, giving kids a chance to listen to and appreciate the sounds of the world around us.

**Melody:** For the melody, I chose to keep it simple and repetitive to make it easier for kids to sing along. I also used a lot of quarter notes to keep the rhythm steady and easy to follow. The melody starts on the root note of the chord for each verse, and then moves up and down the scale in a pattern that fits the lyrics.

**Chords:** Chords: To keep the chords simple and easy to play, I chose to use only three chords: C, F, and G. These chords are often used in popular and children's music, and they work well with the melody I created.

Verse 1:
(C) Fireflies, fireflies
(F) Flying through the night
(G) Lighting up the sky
(C) Brighter than starlight

Chorus:
(C) Firefly (G) life cycle
(F) Eggs to larva to pupa to adult (C)
(C) Firefly (G) life cycle
(F) It's amazing, oh how (C) magical

Verse 2:
(C) Glowing in the dark
(F) Catching them in jars
(G) Watching them up close
(C) It's like stars on our toes

Chorus:
(C) Firefly (G) life cycle
(F) Eggs to larva to pupa to adult (C)
(C) Firefly (G) life cycle
(F) It's amazing, oh how (C) magical

Tab:

(C) Fireflies, fireflies (F) Flying through the night (G) Lighting up the sky (C) Brighter than starlight
```
e|-----------------|-----------------|-----------------|-----------------|
B|-----------------|-----------------|-----------------|-----------------|
G|-0---------0-----|-3-----3---------|-----------------|-----------------|
D|-------2---------|-------3---------|-0---------0-----|-2-----2---------|
A|---3-------------|---1-------------|-------2---------|-------3---------|
E|-----------------|-----------------|---3-------------|---1-------------|
```

Chorus:
(C) Firefly (G) life cycle (F) Eggs to larva to pupa to adult (C) (C) Firefly (G) life cycle (F) It's amazing, oh how (C) magical
```
e|-0---------------|-------3---------|-1---------------|-------0---------|
B|-1---------------|---0-------------|-1---------------|---1-------------|
G|-0---------------|-------0---------|-2---------------|-------0---------|
D|-2---------------|-----------------|-3---------------|-------2---------|
A|-3---------------|-----------------|-----------------|-------3---------|
E|-----------------|-3---------------|-----------------|-----------------|
```

Verse 2:
(C) Glowing in the dark (F) Catching them in jars (G) Watching them up close (C) It's like stars on our toes
```
e|-----------------|-----------------|-----------------|-----------------|
B|-----------------|-----------------|-----------------|-----------------|
G|-0---------0-----|-3-----3---------|-----------------|-----------------|
D|-------2---------|-------3---------|-0---------0-----|-2-----2---------|
A|---3-------------|---1-------------|-------2---------|-------3---------|
E|-----------------|-----------------|---3-------------|---1-------------|
```

Chorus:
(C) Firefly (G) life cycle (F) Eggs to larva to pupa to adult (C) (C) Firefly (G) life cycle (F) It's amazing, oh how (C) magical
```
e|-0---------------|-------3---------|-1---------------|-------0---------|
B|-1---------------|---0-------------|-1---------------|---1-------------|
G|-0---------------|-------0---------|-2---------------|-------0---------|
D|-2---------------|-----------------|-3---------------|-------2---------

**Bridge (Lyrics and Chords):** Chords:

Verse:
Am - F - C - G

Chorus:
C - G - Am - F

Bridge:
Dm - F - C - G

Rhythm Tab:

Verse:
Am - F - C - G
x x x x x x x x

Chorus:
C - G - Am - F
x x x x x x x x

Bridge:

Dm F C G
x x x x x x x x

Lyrics:

Verse 1:
From a tiny egg, a firefly is born
It crawls on the ground, until the next morn’
It sheds its skin and becomes something new
A firefly larva, with much to do

Chorus:
Oh firefly, lighting up the night
You glow so bright, you’re such a sight

Verse 2:
The larva eats and eats, to grow up strong
It sheds its skin, again and again, all summer long
Until it’s time, to spin a cocoon
It rests inside, until it’s time to bloom

Chorus:
Oh firefly, lighting up the night
You glow so bright, you’re such a sight

Bridge:
Now it’s time, to spread your wings
And fly away, to do your thing
You’re a firefly, shining in the dark
A little bug, with a big spark

Chorus:
Oh firefly, lighting up the night
You glow so bright, you’re such a sight

Outro:
Firefly, firefly, shining in the sky
Fly high, fly high, you light up my life.

**Chorus (Melody and Chords):** Chorus:
```
[Am] Fireflies, fireflies, [C] shining in the [G] night
[Am] Fireflies, fireflies, [C] what a pretty [G] sight
[Am] From egg to larva to [C] pupa and then [G] adult
[Am] Fireflies, fireflies, [C] they're amazing and [G] unique [stop]
```

**Drums and Bass** Unfortunately, I cannot create ASCII tablature for the drum kit and bass guitar as the given piece only contains lyrics and chords. The chords used in the piece are C, F, G, Am, and Dm, which can be used to create a simple strumming pattern on the guitar. However, I can provide a basic example of a strumming pattern that can be used for the song:

Verse:

C F
down down up up down
G C
down down up up down

Chorus:

C G
down down up up down
Am F
down down up up down

Bridge:

Dm F
down down up up down
C G
down down up up down

The strumming pattern can be adjusted according to the tempo and feel of the song. As for the drum kit and bass guitar, they can follow the chord progression and rhythm of the guitar to create a simple and cohesive accompaniment for the song.

**Instruments:** Instruments: For this song, I would suggest using a guitar to strum the chords and provide a rhythmic accompaniment. A piano or keyboard could also work well to provide a more full and melodic sound. In addition, incorporating a xylophone or glockenspiel would add a playful and whimsical element to the song.

Additional songs:
1. "The Water Cycle Song"

Chorus:
Water droplets in the air
Changing forms, going everywhere
Evaporation, condensation too
The water cycle, it's all brand new!

2. "The Butterfly Life Cycle Song"

Chorus:
Egg to caterpillar, chrysalis too
Metamorphosis, a change that's true
Butterfly spreads its wings so wide
Nature's beauty, we can't hide.